Logo.gif (3293 bytes)


Guitar

Any contributions from guitarists who can play Toby or Angels stuff would be greatly appreciated for this section.  

90 In The Shade
All Roads Lead To You
Beautiful Mistake
Beginning To End
Breakdown
Don't Pray For Me
England Rocks
Feels Like The World Has Come Undone

Forbidden Fruit

Forgiveness
I Ain't Gonna Cry
I Want Love
I Won't Be With You
If My Heart Was Free
Just One Night
Juvenile Offender
Might Like It Better
My Aim Is True
Overrated
Paperthin
Pure
Refresh Yourself
She's A Little Angel

The Way That I Live
This Ain't The Way It's Supposed To Be
Too Much Too Young
True Love Knot
Unwind
When I Get Out Of Here
Weight Of The World
Wildside Of Life
Young Gods


Don't Pray For Me

Verse- Cmajor/Gmajor/Fmajor/Fminor
Chorus- Cmajor-Fmajor/Cmajor/Fminor-Fminor7/Gmajor
Cmajor-Fmajor/Emajor/Aminor/Fminor-Fminor7
M8- Amajor/Gmajor/Dmajor (repeat)Then...Emajor/Aminor/Fminor/Fminor7


Breakdown

Intro
E--2--2--2--2--2--2--2--2--2--2--2--4
B--2--2--2--2--2--2--2--2--2--2--2--4
G--2--2--2--2--2--2--2--2--2--2--2--4
D--2--2--2--2--2--2--2--2--2--2--2--4
A--0--0--0--0--0--0--0--0--0--0--0--0
E--x--x--x--4--x--x--x--4--x--x--x--x

Basically itís A with a hammer on fret 4 on the bottom E.  Then move up to B.  The easiest way to play it is to use your index finger to play A and the third finger to hit the E string (which is muted using the thumb when on the A), then play B using your third finger.

Verse (a short riff played occasionally)
   B  B  Bb A
E--2--2--1--0
B--4--4--3--2
G--4--4--3--2
D--4--4--3--2
A--0--0--0--0
E------------

The chorus is basically E A B A E twice


All Roads Lead To You

(riff 1)
E--0--0--x--x--x--x--x--0--0
B--0--0--x--x--x--x--x--2--2
G--1--1--x--x--x--x--x--2--2
D--2--2--x--x--x--x--x--2--2
A--2--2--x--x--x--3--4--0--0
E--0--0--0--3--4--x--x--0--0

(riff 2)
E--0--0--x--x--x--x--x--0--0--2--2--0--0--0--0
B--0--0--x--x--x--x--x--2--2--2--2--2--2--0--0
G--1--1--x--x--x--x--x--2--2--2--2--2--2--1--1
D--2--2--x--x--x--x--x--0--0--0--0--2--2--2--2
A--2--2--x--x--x--3--4--0--0--0--0--0--0--2--2
E--0--0--0--3--4--x--x--0--0--0--0--0--0--0--0

Intro - play riff 1 twice, then riff 2 once
Verse - E, D, A

All Roads Lead To You (tab)


The Way That I Live

Intro:      D5 (x577xx) / G5/D (x557xx) (repeats then ends with C / G)
Verse:     A / D/A
               A / D/A / G / D
Chorus:     D / C / G 
                D / C / G / D5
Middle 8:  A / Asus4 (x02230) / A / A7sus4 (x02030) / A / Asus4 / Am / Gsus4 (3x001x)
Outro:      D5 / G5/D


Too Much Too Young (chords)

Intro: A5 (x022xx) / A / A5 / D
Verse: A / D/A / E / A (x2)
Bridge: A (577655) / B (799877) / E (x2 then D/F# (200232))
Chorus: A / D/A / A / D/A / E / D (x3) then Dm
Bridge: D / E / D/F# / A/E (002220) / E
            E / D / A/C# (x42220) / A
            E / D/F# / A / F#m / D
Outro: E / E/D (xx0100) / D/C (x4x232) / D
            A5 / E5 (022xxx) / D5 (x577xx) (repeats)

Too Much Too Young (tab)


Unwind

Chords used:
E (779997)
B (x24442)
C#m (446554)
A (x02220)
G#m (466444)

Intro: E, B, C#m, A
Verse: as intro
Chorus:    E | B | C#m | A
               E |  B | G#m | A  B

Intro riff (played twice)
E-----------------------------------------------------
B--9-----9-----10-----10-----12-----12-----10-----10--
G-----9-----9------9------9------9------9------9------
D-----------------------------------------------------
A-----------------------------------------------------
E-----------------------------------------------------

Then
E--------------
B--------------
G--------------
D--------2-----
A--2--4--------
E-----------0--


Forgiveness

Bm (224332)
G (320033)
D/F# (200232)
Em* (022033)
A (x02220)
Am (x02210)
F#7 (242222)
E (022100)

These are the chords used as Nick told them to me, any mistakes or errors are mine.

Verse: Bm (then quick G -> D/F# -> Em*)
Bridge: A->Am, Em, D, E/G#
Chorus: A F#7 Bm E


Refresh Yourself

This song uses dropped 'D' tuning.  The intro is played using the top 2 strings, and the chorus uses standard G, D and Dsus4 chords.

Intro:
G (000013)
D (xx0232)
Dsus4 (xx0233)


She's A Little Angel

Intro:

E--3--3--0--0--x--x--x--0--2--2--2--4
B--3--3--2--2--x--x--x--0--2--2--2--4
G--0--0--2--2--x--x--x--1--2--2--2--4
D--0--0--2--2--x--x--x--2--2--2--2--4
A--x--x--0--0--x--x--x--2--0--0--0--0
E--x--x--x--x--3--2--0--4--x--x--x--x  

Essentially this is a G chord with the bottom 2 strings muted, then A, then the 3-2-0 riff on the bottom E string, then an E (upstroke).

The verse and chorus all use the E, A and G chords too as far as I can tell.


Young Gods

The intro is played using the chords below, approx 14 x A, then 7 x G then D.

   A  G  D
E--x--x--x
B--x--x--x
G--9--7--x
D--7--5--7
A--x--x--5
E--x--x--x  

[Verse 1]
A
They stand in the shadows with holed out shoes
They got everything to gain and nothing to lose
                       G
Theyíre strong hearts alive
                      D
They got stars in their eyes
A
They come from the towns of worn out streets
Where all the tribes dance to all the different beats
                G
But theyíre all the same
                            D
Same spirits with a different name
               A
The young gods

[Verse 2 is the same as verse 1]

[Chorus]
     G                D                    A
So stand up and fight for your life
     G                D                    A
No surrender and no compromise
     G                D                    A
When desire is burning your eyes
                    G        D
Youíre young gods
                    A
Youíre young gods

[Verse 3 as verse 1]

[Bridge] - unknown
[Solo] - more advanced than my guitar playing!


I Ain't Gonna Cry

Thanx to Duncan Beadnell for supplying this tab, which can also be found on his website.  I've made slight a slight alteration which may or may not be correct.

Chords used:
F (133211)
Dm (xx0231)
C (x32010)
Bb (113331)
G#m (466444)
A (x02220)
D (xx0232)

Intro:

E-----------------------------------------
B--17(18)--15-------17(18)--15------------
G-------------16---------------16--14--16-
D-----------------------------------------
A-----------------------------------------
E-----------------------------------------

This is followed by a complicated mini-solo in the Dm pentatonic scale which I've not been able to figure out yet.

Verse: F, Dm, C, Bb
Bridge: G#m, A
Chorus: D, A, D, A, G

Solo (I think):
E--------------------------5-----------------------5--
B----6--5--6------5--6--8----8--6--8------6--5--6-----
G--7------------7----------------------7--------------
D-----------------------------------------------------
A-----------------------------------------------------
E-----------------------------------------------------

E--8--10--6--10-----10-----10--13--12--10-------------------------
B----------------8------6------------------11---------------10--10
G--7------------7----------------------7--------------9--9--------
D----------------------------------------------11-11--------------
A-----------------------------------------------------------------
E-----------------------------------------------------------------

E--------------------------5----------5-----5---
B----6--5--6------5--6--8----8--6--8-----8------
G--7------------7-------------------------------
D-----------------------------------------------
A-----------------------------------------------
E-----------------------------------------------

E--12----------12------12--13-----
B------13------13------13--15-----
G----------14------14-------------
D---------------------------------
A---------------------------------
E---------------------------------

E-8--6--5--6--5-----5-------------------------------------------------------
B----------------8-----8--6--8--6--5--6--5-----5----------------------------
G-------------------------------------------7-----7--5--7--5--4--5--4-------
D----------------------------------------------------------------------7--6-
A---------------------------------------------------------------------------
E---------------------------------------------------------------------------


This Ain't The Way It's Supposed To Be
 
Once again, thanx for Paul for supplying these chords.
 
A       (x0222x)
C       (x3201x)
D       (xx0232)
Dsus4 (xx0233)
E        (022100)
Em      (022000)
F        (x3321x)
G        (320003)
 
[Verse 1]
                                               D   Dsus4  D                                                               
Itís not the way itís supposed to be
                                Em
Everybody should be free
                           G                                       
Hit an all time big low
                                    A
Is this the way we gotta go
                                               D  Dsus4  D
Itís not the way itís supposed to be
 
[Verse 2 as verse 1]
[Bridge]
(D from verse)          G
You may say that I'm naive
                         D
Or a dreamer to believe
                                        E
But I'm hoping through the pain
                    A
Love will live again
 
[Verse 3 as verse 1]
 
[Bridge]
F                       C
Yeah I'm hopin', Yeah I'm tryin'
G
For most of the time it's an emotional relyin'
F               C
On people, And their spirits
E                                              A
Crushed because they think that no-one can hear us
 
[Verses 4 & 5 as verse 1]
Song ends on an 'A'

My Aim Is True

C       (x3201x)
D       (xx0232)
Em      (022000)
G        (320003)

Intro / Verse:
Em, D, C, G


Weight Of The World

Em7 (022033)
Cadd9 (x32033)
G (320033)
D (xx0233)
Am7 (x02010)
B/G (x20030)
C (x32013)

Verse & Chorus: Em7  Cadd9  G  D
Bridge ("But I'll try to do the best I can"): Am7  B/G  C  D

Bass riff following G in the verse:
E-----------------------------------------
B-----------------------------------------
G-----------------------------------------
D-----------------------------------------
A-2--3--4--5--0---------------------------
E----------------2--3--5------------------


Pure

Intro (acoustic then electric)

  D                    G
E-----------------------------------------------
A-----------------------------------------------
D-0-0-0-0-0-0-0-0----0-0-0-0-0-0-0-0------------
G-2-2-2-2-2-2-2-2----0-0-0-0-0-0-0-0------------
B-3-3-3-3-3-3-3-3----3-3-3-3-3-3-3-3------------
E-2-2-0-2-3-2-0-2----2-2-0-2-3-2-0-2------------

Verse is just D and G

Bridge (ďI got some good advice..Ē)

  A     G/A     A     G/A
E-----------------------------------------------
A-0------0------0------0------------------------
D-2------0------2------0------------------------
G-2------0------2------0------------------------
B-2------0------2------0------------------------
E-2------0------2------0------------------------

Chorus same as intro


Beautiful Mistake

G#m (466444)
E   (x79997)
C#  (x46664)

G   (36xxxx)


Beginning To End

Intro/Verse riff:
E----------3-----3--------------2-----2--------------1-----1---------------
B----1---------------------1--------------------1--------------3--1--0--1--
G-2-----2-----2-----2--2-----2-----2-----2--2-----2-----2------------------
D--------------------------------------------------------------------------
A--------------------------------------------------------------------------
E--------------------------------------------------------------------------

Chorus:
G Dm Am


I Won't Be With You

Intro/Riff 1:
E--0--3-----3-----3----
B--------2-----1-------
G----------------------
D----------------------
A----------------------
E----------------------

Riff 2 (same notes as Riff 1 but heavier sound):
E----------------------
B----------------------
G----------------------
D--2--5-----5-----5----
A--------4-----3-------
E----------------------

Riff up to Chorus:
E-----------------
B-----------------
G-----------------
D--2*---0---------
A--3----3---------
E-----------------
* - bend and release

Chorus:
Em
C9 (x32033)
G
D (then the Riff leading to Chorus above)


England Rocks

Intro: F# | Eb | Bb

Verse: Bb | G | F G G Bb

Chorus: Bb | C | Eb | Bb

Verse 2: Bb | Eb | Bb | C | Eb

Middle 8: Eb minor | C B | Cm | F# | F | A | Bb minor | Ab | F#

Solo: Same as intro (in Bb)


Paperthin

Intro/Verse: D | D6 | Dmaj7 | D

Pre-C: G | D/F# | Em | Em (x3)
          G | D/F# | A   | A

Chorus: D | D | C | G

Middle8: BbMaj7 | Am7 | D | D (x3)
              F | F | Em | Em | Em| Em
              D | D | C | G

 

D6 (xx0432)
Dmaj7 (xx0675)


Juvenile Offender

A | D A | D A | G
A | D A | D A | G
C#m D | C#m D | E

G D | A | G D | A
G D | F A | C G | Am | G D

F#m D | E A | D E | A
F#m D | Fdim F#m7 | D | C#7
Am | G D | Am | G D | Am E/G# | G D/F# | F | D | G Am
A | D A | G | D | A

Solo:
G D | A | G D | A | G D | F A | C G | A
F#m D | E A | D E A | F#m D | E A | D | C#
G D | A | G D | A | G D | F A | C G | A

(I think!)


Forbidden Fruit

Intro/ Verse: E riff

Pre-C E | A | E | A | D A

Chorus: E | G | A | G A G

Solo over chorus chords
A | A | B | B | A | A | B | C D


I Want Love

Verse: A (riff) | A | D

Pre-C: G D | G D | G D | A
          G D | G D | G D | A
          A | A GG | A | A GG | A | G | G | G D

A G D G D G


When I Get Out Of Here

Intro: A off then A

Verse: E

Chorus: E A/C# | D
            E C | A D
            E A/C# | D 
            E C | A D

Verse : E

Chorus: E A/C# | D
            E C | A D
            E A/C# | D 
            C D | E 

Solo in G

E A/C# | D
E C | A D
E A/C# | D (repeats)


If My Heart Was Free

Intro: G C/G | G C/G

Verse: G C/G | G C/G | G C/G | G C/G
           G C/G | Em C | G C/G | G C/G 
            Cmaj7 Bm7 | F

Chorus: G C/G | Em C (x 4)

Verse:
Chorus

Middle 8: Cmja7 | Bm7 Em | Cmaj7 Bm7 | Em
                Cmaj 7 Bm7 | F | F

Chorus to end
End on C


True Love Knot

F | F | G | G | F | F | G | G
F | F | G | G | F | F | G | G

Am F | G C | Am F | G C
Am F | G C | Am F | G C


Might Like It Better

Intro: A | A | A | A

Verse: A | A | A | A
            A | A | A | A

Chours: B A | B A | B A | D/G | D/G
            B D | E | BD | E
            B D | E | B D | E

Verse 2: A | A | G D | A
            A | A A G D | A
Chorus

Solo: F#m A | B (x4)

Verse:

Chorus to end


Just One Night

Intro: A | A | A | A

Verse: A | A | D | D | E | G | A | A G D (x2)

Pre-C: C | G | D | A | C | G | E | D

Chorus: A D | A D | A D | E D
            A D | A D | A D | E

Verse:
Pre-C:

Chorus x 2 end on G

Solo = verse
Pre-C

Chorus
G for ages to end


90 In The Shade

Intro = riff (coming soon as tab)

Verse: G then riff
Pre-CBb | G | Bb | G | Bb | G | G | G

Chorus: Em | F | G | C F C
            Em | F | G | C F | F

Verse:
Pre-C
Chorus


Overrated

Verse: A | C#m | D | Dm A
          A | C#m | D | Dm A
            D A | D A | D F# | F#

Chorus:   B E | B E | B E | B E
            A C#m | D Dm | A G | D C | A G | DC

Verse:
Chorus:

Solo: As verse
Chorus:
A G | D C repeats to end


Wildside Of Life

Intro:
E | D | A | A
E | D | A | A
E | D | A | A

Verse:
G | A | G | A | G | A | B | B
G | A | G | A | G | A | B | B

Chrous:
E | D | A | A | E | D | A | A

Verse:
Chorus:
D | D | G | Gm


Feels Like The World Has Come Undone

Gm | Bb | Bb | F
Gm | C | C | Bb | G/B | F | Gm
Bb | Bb/C | F

F | Gm | Bb | Bb | F | Gm | C | C | Bb | G/B | F | Gm
Bb | Bb /C | F | F Am | Bb C | C | Bb | F | F
C | Bb | F | F | C | Bb | G/B | G/B | Bb | Bb/C | F

Ebsus4 | Eb | F | F | Ebsus4 | Eb | F | F
Gm | Bb | Csus4 | C

F | Gm | Bb | Bb | F | Gm | C | C | Bb | G/B | F | Gm
Bb | Bb/ | C# | Bb